ISO-10303-21;
HEADER;
/* Generated by software containing ST-Developer
 * from STEP Tools, Inc. (www.steptools.com) 
 */
/* OPTION: using custom schema-name function */

FILE_DESCRIPTION(
/* description */ (''),
/* implementation_level */ '2;1');

FILE_NAME(
/* name */ 'EX-D21Q.stp',
/* time_stamp */ '2023-04-10T09:45:28+08:00',
/* author */ (''),
/* organization */ (''),
/* preprocessor_version */ 'ST-DEVELOPER v16.7',
/* originating_system */ 'SIEMENS PLM Software NX 12.0',
/* authorisation */ '');

FILE_SCHEMA (('AUTOMOTIVE_DESIGN { 1 0 10303 214 3 1 1 1 }'));
ENDSEC;

DATA;
#10=SHAPE_REPRESENTATION_RELATIONSHIP('None',
'relationship between EX-D21Q-None and EX-D21Q-None',#22,#11);
#11=ADVANCED_BREP_SHAPE_REPRESENTATION('EX-D21Q-None',(#46,#47,#48),#275);
#12=SHAPE_DEFINITION_REPRESENTATION(#13,#22);
#13=PRODUCT_DEFINITION_SHAPE('','',#14);
#14=PRODUCT_DEFINITION(' ','',#16,#15);
#15=PRODUCT_DEFINITION_CONTEXT('part definition',#21,'design');
#16=PRODUCT_DEFINITION_FORMATION_WITH_SPECIFIED_SOURCE(' ',' ',#18,
 .NOT_KNOWN.);
#17=PRODUCT_RELATED_PRODUCT_CATEGORY('part','',(#18));
#18=PRODUCT('EX-D21Q','EX-D21Q',' ',(#19));
#19=PRODUCT_CONTEXT(' ',#21,'mechanical');
#20=APPLICATION_PROTOCOL_DEFINITION('international standard',
'automotive_design',2010,#21);
#21=APPLICATION_CONTEXT(
'core data for automotive mechanical design processes');
#22=SHAPE_REPRESENTATION('EX-D21Q-None',(#168),#275);
#23=PRESENTATION_LAYER_ASSIGNMENT('1','Layer 1',(#46,#47,#48));
#24=STYLED_ITEM('',(#27),#46);
#25=STYLED_ITEM('',(#28),#47);
#26=STYLED_ITEM('',(#29),#48);
#27=PRESENTATION_STYLE_ASSIGNMENT((#30));
#28=PRESENTATION_STYLE_ASSIGNMENT((#31));
#29=PRESENTATION_STYLE_ASSIGNMENT((#32));
#30=SURFACE_STYLE_USAGE(.BOTH.,#33);
#31=SURFACE_STYLE_USAGE(.BOTH.,#34);
#32=SURFACE_STYLE_USAGE(.BOTH.,#35);
#33=SURFACE_SIDE_STYLE('',(#36));
#34=SURFACE_SIDE_STYLE('',(#37));
#35=SURFACE_SIDE_STYLE('',(#38));
#36=SURFACE_STYLE_FILL_AREA(#39);
#37=SURFACE_STYLE_FILL_AREA(#40);
#38=SURFACE_STYLE_FILL_AREA(#41);
#39=FILL_AREA_STYLE('',(#42));
#40=FILL_AREA_STYLE('',(#43));
#41=FILL_AREA_STYLE('',(#44));
#42=FILL_AREA_STYLE_COLOUR('',#45);
#43=FILL_AREA_STYLE_COLOUR('',#45);
#44=FILL_AREA_STYLE_COLOUR('',#45);
#45=COLOUR_RGB('Orange',1.,0.6,0.);
#46=MANIFOLD_SOLID_BREP('',#49);
#47=MANIFOLD_SOLID_BREP('',#50);
#48=MANIFOLD_SOLID_BREP('',#51);
#49=CLOSED_SHELL('',(#71,#72,#73,#74,#75,#76));
#50=CLOSED_SHELL('',(#77,#78,#79));
#51=CLOSED_SHELL('',(#80,#81,#82));
#52=LINE('',#251,#54);
#53=LINE('',#255,#55);
#54=VECTOR('',#207,1.);
#55=VECTOR('',#210,1.);
#56=PLANE('',#172);
#57=PLANE('',#175);
#58=PLANE('',#180);
#59=PLANE('',#184);
#60=PLANE('',#185);
#61=PLANE('',#189);
#62=PLANE('',#190);
#63=FACE_OUTER_BOUND('',#98,.T.);
#64=FACE_OUTER_BOUND('',#101,.T.);
#65=FACE_OUTER_BOUND('',#102,.T.);
#66=FACE_OUTER_BOUND('',#103,.T.);
#67=FACE_OUTER_BOUND('',#106,.T.);
#68=FACE_OUTER_BOUND('',#107,.T.);
#69=FACE_OUTER_BOUND('',#110,.T.);
#70=FACE_OUTER_BOUND('',#111,.T.);
#71=ADVANCED_FACE('',(#88,#89),#83,.T.);
#72=ADVANCED_FACE('',(#63),#56,.T.);
#73=ADVANCED_FACE('',(#90,#91),#57,.F.);
#74=ADVANCED_FACE('',(#64),#84,.F.);
#75=ADVANCED_FACE('',(#65),#85,.F.);
#76=ADVANCED_FACE('',(#66),#58,.T.);
#77=ADVANCED_FACE('',(#92,#93),#86,.T.);
#78=ADVANCED_FACE('',(#67),#59,.F.);
#79=ADVANCED_FACE('',(#68),#60,.T.);
#80=ADVANCED_FACE('',(#94,#95),#87,.T.);
#81=ADVANCED_FACE('',(#69),#61,.F.);
#82=ADVANCED_FACE('',(#70),#62,.T.);
#83=CYLINDRICAL_SURFACE('',#171,1.);
#84=CYLINDRICAL_SURFACE('',#177,0.25);
#85=CYLINDRICAL_SURFACE('',#179,0.25);
#86=CYLINDRICAL_SURFACE('',#183,0.25);
#87=CYLINDRICAL_SURFACE('',#188,0.25);
#88=FACE_BOUND('',#96,.T.);
#89=FACE_BOUND('',#97,.T.);
#90=FACE_BOUND('',#99,.T.);
#91=FACE_BOUND('',#100,.T.);
#92=FACE_BOUND('',#104,.T.);
#93=FACE_BOUND('',#105,.T.);
#94=FACE_BOUND('',#108,.T.);
#95=FACE_BOUND('',#109,.T.);
#96=EDGE_LOOP('',(#112));
#97=EDGE_LOOP('',(#113));
#98=EDGE_LOOP('',(#114));
#99=EDGE_LOOP('',(#115,#116));
#100=EDGE_LOOP('',(#117));
#101=EDGE_LOOP('',(#118,#119,#120,#121));
#102=EDGE_LOOP('',(#122,#123,#124,#125));
#103=EDGE_LOOP('',(#126,#127));
#104=EDGE_LOOP('',(#128));
#105=EDGE_LOOP('',(#129));
#106=EDGE_LOOP('',(#130));
#107=EDGE_LOOP('',(#131));
#108=EDGE_LOOP('',(#132));
#109=EDGE_LOOP('',(#133));
#110=EDGE_LOOP('',(#134));
#111=EDGE_LOOP('',(#135));
#112=ORIENTED_EDGE('',*,*,#146,.F.);
#113=ORIENTED_EDGE('',*,*,#147,.T.);
#114=ORIENTED_EDGE('',*,*,#146,.T.);
#115=ORIENTED_EDGE('',*,*,#148,.F.);
#116=ORIENTED_EDGE('',*,*,#149,.F.);
#117=ORIENTED_EDGE('',*,*,#147,.F.);
#118=ORIENTED_EDGE('',*,*,#149,.T.);
#119=ORIENTED_EDGE('',*,*,#150,.T.);
#120=ORIENTED_EDGE('',*,*,#151,.T.);
#121=ORIENTED_EDGE('',*,*,#152,.T.);
#122=ORIENTED_EDGE('',*,*,#148,.T.);
#123=ORIENTED_EDGE('',*,*,#152,.F.);
#124=ORIENTED_EDGE('',*,*,#153,.T.);
#125=ORIENTED_EDGE('',*,*,#150,.F.);
#126=ORIENTED_EDGE('',*,*,#151,.F.);
#127=ORIENTED_EDGE('',*,*,#153,.F.);
#128=ORIENTED_EDGE('',*,*,#154,.T.);
#129=ORIENTED_EDGE('',*,*,#155,.F.);
#130=ORIENTED_EDGE('',*,*,#154,.F.);
#131=ORIENTED_EDGE('',*,*,#155,.T.);
#132=ORIENTED_EDGE('',*,*,#156,.T.);
#133=ORIENTED_EDGE('',*,*,#157,.F.);
#134=ORIENTED_EDGE('',*,*,#156,.F.);
#135=ORIENTED_EDGE('',*,*,#157,.T.);
#136=VERTEX_POINT('',#241);
#137=VERTEX_POINT('',#243);
#138=VERTEX_POINT('',#247);
#139=VERTEX_POINT('',#248);
#140=VERTEX_POINT('',#252);
#141=VERTEX_POINT('',#254);
#142=VERTEX_POINT('',#261);
#143=VERTEX_POINT('',#263);
#144=VERTEX_POINT('',#268);
#145=VERTEX_POINT('',#270);
#146=EDGE_CURVE('',#136,#136,#158,.T.);
#147=EDGE_CURVE('',#137,#137,#159,.T.);
#148=EDGE_CURVE('',#138,#139,#160,.T.);
#149=EDGE_CURVE('',#139,#138,#161,.T.);
#150=EDGE_CURVE('',#138,#140,#52,.T.);
#151=EDGE_CURVE('',#140,#141,#162,.T.);
#152=EDGE_CURVE('',#141,#139,#53,.T.);
#153=EDGE_CURVE('',#141,#140,#163,.T.);
#154=EDGE_CURVE('',#142,#142,#164,.T.);
#155=EDGE_CURVE('',#143,#143,#165,.T.);
#156=EDGE_CURVE('',#144,#144,#166,.T.);
#157=EDGE_CURVE('',#145,#145,#167,.T.);
#158=CIRCLE('',#169,1.);
#159=CIRCLE('',#170,1.);
#160=CIRCLE('',#173,0.25);
#161=CIRCLE('',#174,0.25);
#162=CIRCLE('',#176,0.25);
#163=CIRCLE('',#178,0.25);
#164=CIRCLE('',#181,0.25);
#165=CIRCLE('',#182,0.25);
#166=CIRCLE('',#186,0.25);
#167=CIRCLE('',#187,0.25);
#168=AXIS2_PLACEMENT_3D('',#239,#191,#192);
#169=AXIS2_PLACEMENT_3D('',#240,#193,#194);
#170=AXIS2_PLACEMENT_3D('',#242,#195,#196);
#171=AXIS2_PLACEMENT_3D('',#244,#197,#198);
#172=AXIS2_PLACEMENT_3D('',#245,#199,#200);
#173=AXIS2_PLACEMENT_3D('',#246,#201,#202);
#174=AXIS2_PLACEMENT_3D('',#249,#203,#204);
#175=AXIS2_PLACEMENT_3D('',#250,#205,#206);
#176=AXIS2_PLACEMENT_3D('',#253,#208,#209);
#177=AXIS2_PLACEMENT_3D('',#256,#211,#212);
#178=AXIS2_PLACEMENT_3D('',#257,#213,#214);
#179=AXIS2_PLACEMENT_3D('',#258,#215,#216);
#180=AXIS2_PLACEMENT_3D('',#259,#217,#218);
#181=AXIS2_PLACEMENT_3D('',#260,#219,#220);
#182=AXIS2_PLACEMENT_3D('',#262,#221,#222);
#183=AXIS2_PLACEMENT_3D('',#264,#223,#224);
#184=AXIS2_PLACEMENT_3D('',#265,#225,#226);
#185=AXIS2_PLACEMENT_3D('',#266,#227,#228);
#186=AXIS2_PLACEMENT_3D('',#267,#229,#230);
#187=AXIS2_PLACEMENT_3D('',#269,#231,#232);
#188=AXIS2_PLACEMENT_3D('',#271,#233,#234);
#189=AXIS2_PLACEMENT_3D('',#272,#235,#236);
#190=AXIS2_PLACEMENT_3D('',#273,#237,#238);
#191=DIRECTION('',(0.,0.,1.));
#192=DIRECTION('',(1.,0.,0.));
#193=DIRECTION('',(1.,0.,0.));
#194=DIRECTION('',(0.,1.,-6.12323399573677E-17));
#195=DIRECTION('',(1.,0.,0.));
#196=DIRECTION('',(0.,1.,-6.12323399573677E-17));
#197=DIRECTION('',(-1.,0.,0.));
#198=DIRECTION('',(0.,0.,1.));
#199=DIRECTION('',(1.,0.,0.));
#200=DIRECTION('',(0.,0.,-1.));
#201=DIRECTION('',(-1.,0.,0.));
#202=DIRECTION('',(0.,1.,0.));
#203=DIRECTION('',(-1.,0.,0.));
#204=DIRECTION('',(0.,1.,0.));
#205=DIRECTION('',(1.,0.,0.));
#206=DIRECTION('',(0.,0.,-1.));
#207=DIRECTION('',(1.,0.,0.));
#208=DIRECTION('',(1.,0.,0.));
#209=DIRECTION('',(0.,1.,0.));
#210=DIRECTION('',(-1.,0.,0.));
#211=DIRECTION('',(-1.,0.,0.));
#212=DIRECTION('',(0.,0.,1.));
#213=DIRECTION('',(1.,0.,0.));
#214=DIRECTION('',(0.,1.,0.));
#215=DIRECTION('',(-1.,0.,0.));
#216=DIRECTION('',(0.,0.,1.));
#217=DIRECTION('',(-1.,0.,0.));
#218=DIRECTION('',(0.,0.,1.));
#219=DIRECTION('',(-1.,0.,0.));
#220=DIRECTION('',(0.,1.,0.));
#221=DIRECTION('',(-1.,0.,0.));
#222=DIRECTION('',(0.,1.,0.));
#223=DIRECTION('',(-1.,0.,0.));
#224=DIRECTION('',(0.,0.,1.));
#225=DIRECTION('',(-1.,0.,0.));
#226=DIRECTION('',(0.,0.,1.));
#227=DIRECTION('',(-1.,0.,0.));
#228=DIRECTION('',(0.,0.,1.));
#229=DIRECTION('',(-1.,0.,0.));
#230=DIRECTION('',(0.,1.,0.));
#231=DIRECTION('',(-1.,0.,0.));
#232=DIRECTION('',(0.,1.,0.));
#233=DIRECTION('',(-1.,0.,0.));
#234=DIRECTION('',(0.,0.,1.));
#235=DIRECTION('',(-1.,0.,0.));
#236=DIRECTION('',(0.,0.,1.));
#237=DIRECTION('',(-1.,0.,0.));
#238=DIRECTION('',(0.,0.,1.));
#239=CARTESIAN_POINT('',(0.,0.,0.));
#240=CARTESIAN_POINT('',(15.,0.,0.));
#241=CARTESIAN_POINT('',(15.,1.,-6.12323399573677E-17));
#242=CARTESIAN_POINT('',(0.,0.,0.));
#243=CARTESIAN_POINT('',(0.,1.,-6.12323399573677E-17));
#244=CARTESIAN_POINT('',(15.,0.,0.));
#245=CARTESIAN_POINT('',(15.,0.,0.));
#246=CARTESIAN_POINT('',(0.,0.,0.245));
#247=CARTESIAN_POINT('',(0.,-0.049749371855382,1.02999206386123E-14));
#248=CARTESIAN_POINT('',(0.,0.0497493718551129,4.43438688546571E-14));
#249=CARTESIAN_POINT('',(0.,0.,-0.245));
#250=CARTESIAN_POINT('',(0.,0.,0.));
#251=CARTESIAN_POINT('',(0.05,-0.0497493718553863,-1.11672823766007E-14));
#252=CARTESIAN_POINT('',(0.05,-0.0497493718553863,-1.11672823766007E-14));
#253=CARTESIAN_POINT('',(0.05,0.,-0.245));
#254=CARTESIAN_POINT('',(0.05,0.0497493718551129,4.43438688546571E-14));
#255=CARTESIAN_POINT('',(0.05,0.0497493718551129,4.43438688546571E-14));
#256=CARTESIAN_POINT('',(0.05,0.,-0.245));
#257=CARTESIAN_POINT('',(0.05,0.,0.245));
#258=CARTESIAN_POINT('',(0.05,0.,0.245));
#259=CARTESIAN_POINT('',(0.05,0.,0.));
#260=CARTESIAN_POINT('',(35.,0.,-0.245));
#261=CARTESIAN_POINT('',(35.,0.25,-0.245));
#262=CARTESIAN_POINT('',(15.,0.,-0.245));
#263=CARTESIAN_POINT('',(15.,0.25,-0.245));
#264=CARTESIAN_POINT('',(35.,0.,-0.245));
#265=CARTESIAN_POINT('',(35.,0.,-0.245));
#266=CARTESIAN_POINT('',(15.,0.,-0.245));
#267=CARTESIAN_POINT('',(35.,0.,0.245));
#268=CARTESIAN_POINT('',(35.,0.25,0.245));
#269=CARTESIAN_POINT('',(15.,0.,0.245));
#270=CARTESIAN_POINT('',(15.,0.25,0.245));
#271=CARTESIAN_POINT('',(35.,0.,0.245));
#272=CARTESIAN_POINT('',(35.,0.,0.245));
#273=CARTESIAN_POINT('',(15.,0.,0.245));
#274=MECHANICAL_DESIGN_GEOMETRIC_PRESENTATION_REPRESENTATION('',(#24,#25,
#26),#275);
#275=(
GEOMETRIC_REPRESENTATION_CONTEXT(3)
GLOBAL_UNCERTAINTY_ASSIGNED_CONTEXT((#276))
GLOBAL_UNIT_ASSIGNED_CONTEXT((#282,#278,#277))
REPRESENTATION_CONTEXT('EX-D21Q','TOP_LEVEL_ASSEMBLY_PART')
);
#276=UNCERTAINTY_MEASURE_WITH_UNIT(LENGTH_MEASURE(2.E-5),#282,
'DISTANCE_ACCURACY_VALUE','Maximum Tolerance applied to model');
#277=(
NAMED_UNIT(*)
SI_UNIT($,.STERADIAN.)
SOLID_ANGLE_UNIT()
);
#278=(
CONVERSION_BASED_UNIT('DEGREE',#280)
NAMED_UNIT(#279)
PLANE_ANGLE_UNIT()
);
#279=DIMENSIONAL_EXPONENTS(0.,0.,0.,0.,0.,0.,0.);
#280=PLANE_ANGLE_MEASURE_WITH_UNIT(PLANE_ANGLE_MEASURE(0.0174532925),#281);
#281=(
NAMED_UNIT(*)
PLANE_ANGLE_UNIT()
SI_UNIT($,.RADIAN.)
);
#282=(
LENGTH_UNIT()
NAMED_UNIT(*)
SI_UNIT(.MILLI.,.METRE.)
);
ENDSEC;
END-ISO-10303-21;
